Wicak ©_2013: Diary Depresiku Tab by Last Child @ Mals Wicak Blog
Home » » Diary Depresiku Tab by Last Child @ Mals Wicak Blog

Diary Depresiku Tab by Last Child @ Mals Wicak Blog

Nih temen temen byamatir,, inilah tab pertama yang gua buat sendiri plus gua publikasikan sendiri,, tab diary depresiku by last child,, tapi sory sebelumnya ya kalau tabnya ancur dan kurang lengkap pula karena gua baru amatiran seperti blog gua ini nih,,. xixixixixixx

Tab Intro Last Child - Diary Depresiku

e|--7----7-------------------------------------------------------------------------------7--------7---------
B|----------10----10---9----7-----7---9------9h10------9----9h7------7h9--------------10----10--9----
G|----9---------9---------9-----9---------9--------------9-----9-------9----------9------9-------9-------
D|-----------------------------------------------------------------------------------------------------------
A|-----------------------------------------------------------------------------------------------------------
E|-------------------------------------------------------------------------------------------------------------------

e|------7-----7-------------------------------------------------------------------- . . . . . .
B|---------------10------10----9-------7-------7----9-----9h10--------9----- . . . . . .
D|---9-----9-----------9-----------9--------9-----------9-----------9-------9---- . . . . . .
G|---------------------------------------------------------------------------------- . . . . . .
A|---------------------------------------------------------------------------------- . . . . . .
E|---------------------------------------------------------------------------------- . . . . . .
Atau kalau mau lihat via notepad download this http://www.ziddu.com/download/13103672/DiaryDepresikuTabbyLastChildMalsWicak.txt.html 
Atau agan tidak bisa membaca tab, silahkan baca artikel nya >>Disini !!!<<

Selamat mencoba dan semoga sukses dan jangan lupa koment ya ???

1 Respon:

Anonim mengatakan...

wah sob, makasih banget infonya. hehe
mga mkin jaya adj yaw???
wkwkwkwkwww

Posting Komentar

Online: